Gitarizm

» Тексты и аккорды к песням для гитары » Zebrahead - His World bass (табулатура)

Гитаризм

Конкурс на лучший кавер
Здесь могла бы быть Ваша реклама!
Хотите узнать как играть на гитаре? Гитаризм — лучший самоучитель гитары для начинающих!

Zebrahead - His World bass (табулатура)


Tuning E/A/D/G

to prevent confusion, there are no 1's in this tab they are all 11's.

 intro
G---------------------------------------------------|
D---------------------------------------------------|
A---------------------------------------------------|
E-4-6-7-9-------------------------------------------| x 4

verse 1
G---------------------------------------------------|
D---------------------------------------------------|
A---------------------------------------------------|
E-11-9-7-4-6-11-9-7-4-6-111111-999-777-444-666------|

G---------------------------------------------------|
D---------------------------------------------------|
A---------------------------------------------------|
E-111111-999-777-444-666-4-6-7-9-4-6-7-9------------|

chorus
G---------------------------------------------------|
D---44--44---66--66---88--88------------------------|
A-22--22---44--44--66--66-----44--44----------------|
E----------------------------22--22-----------------|x4

G---------------------------------------------------|
D---------------------------------------------------|
A---------------------------------------------------|
E-4-6-7-9-------------------------------------------| x2

verse 2
G---------------------------------------------------|
D---------------------------------------------------|
A---------------------------------------------------|
E-11-9-7-4-6-11-9-7-4-6-111111-999-777-444-666------|

G---------------------------------------------------|
D---------------------------------------------------|
A---------------------------------------------------|
E-111111-999-777-444-666-4-6-7-9-4-6-7-9------------|

chorus
G---------------------------------------------------|
D---44--44---66--66---88--88------------------------|
A-22--22---44--44--66--66-----44--44----------------|
E----------------------------22--22-----------------|x4

(guitar solo)
G---------------------------------------------------|
D---------------------------------------------------|
A-22222222-44444444-66666666------------------------|
E----------------------------22222222---------------| 

G---------------------------------------------------|
D---------------------------------------------------|
A-22222222-44444444-66666666-99999999---------------|
E---------------------------------------------------|x4


verse 3

G----------------------------------------------------|
D----------------------------------------------------|
A----------------------------------------------------|
E-11-11-11-11-11-11-11-11-11-11-11-11-11-11-11-11-11-|

Ending chorus

G---------------------------------------------------|
D---44--44---66--66---88--88------------------------|
A-22--22---44--44--66--66-----44--44----------------|
E----------------------------22--22-----------------|x8

outro
G---------------------------------------------------|
D---------------------------------------------------|
A---------------------------------------------------|
E-4-6-7-9-------------------------------------------| x2

G---------------------------------------------------|
D---------------------------------------------------|
A---------6-----------------------------------------|
E-4-6-7-9-------------------------------------------|

If you have any problems with my tab, please email me
At [email protected]

Enjoy Playing
Автор: muzzon