Gitarizm

» Тексты и аккорды к песням для гитары » Zebrahead - His World Acoustic (табулатура)

Гитаризм

Конкурс на лучший кавер
Здесь могла бы быть Ваша реклама!
Хотите узнать как играть на гитаре? Гитаризм — лучший самоучитель гитары для начинающих!

Zebrahead - His World Acoustic (табулатура)


His world acoustic version by zebrahead


E|----------------------------------------------------------------------------------|
B|--------------------------------------------6--7--9--7--6-------------------------|
G|--------8--6--8--6------------8--6----6--8----------------6--6---8--6--8--6-------|
D|------8------------9--8-----8----------------------------------------------9--8---|
A|----------------------------------------------------------------------------------|
E|----------------------------------------------------------------------------------|

E|--------------------------6-------------------------------------------------------|
B|---------------6-----7--------9--7--6---------------------------------------------|
G|-------8--6--6--6--6----6-------------8--6---8--6---------8--6--8--6--------------|
D|-----8--------------------------------------------9--8--8-------------9--8--6--8--|
A|----------------------------------------------------------------------------------|
E|----------------------------------------------------------------------------------|


E|--------------------------6-----------------------------------------------------|
B|---------------6-----7--------9--7--6-------------------------------------------|
G|-------8--6--6--6--6----6-------------8--6---8--6-------------------------------|
D|-----8---------------------------------------------9--8-------------------------|
A|--------------------------------------------------------------------------------|
E|--------------------------------------------------------------------------------|
Автор: muzzon