Gitarizm

» Тексты и аккорды к песням для гитары » Zebrahead - Hello Tomorrow bass (табулатура)

Гитаризм

Конкурс на лучший кавер
Здесь могла бы быть Ваша реклама!
Хотите узнать как играть на гитаре? Гитаризм — лучший самоучитель гитары для начинающих!

Zebrahead - Hello Tomorrow bass (табулатура)


Hello Tomorrow
Zebrahead
Tabbed by ChaoticStitch

Intro

G------------|
D------------|
A------------|
E--44444444--|

Riff 1

G---------------------------------------------|
D---------------------------------------------|
A-------7777-----------------7777-------------|
E--4444------7777-66-77-4444------7777-66-77--|

Verse

G------------------------------------------------------------|
D------------------------------------------------------------|
A----6-----------------6-7-9-7-6--------7-77------7777-9999--|
E--4---9-7-0-6-7-6-9-9-----------9-4-44------9-99------------|

Chorus

G------------------6---------------------6--------------------6---6------------------------|
D-------------------87-----------------78--------------------------------------------------|
A-------7777----------------7777----------------7777---------------------7777--------------|
E--4444------7777-6----4444------7777-6----4444------7777-6-4---4---4444------7777-66-77---|

Riff 2

G-----------------------------------------------------|
D-----------------------------------------------------|
A----6-----------------6-7-9-7-6----------------------|
E--4---9-7-0-6-7-6-9-9-----------9-4-444444444444444--|

Ending

G------------------------------------------------|
D------------------------------------------------|
A-------7777-----------------7777----------------|
E--4444------7777-66-77-4444------7777-66-77-4~--|  (let last note ring)

Intro       x1

Riff 1      x1

Verse       x2

Chorus      x1

Riff 1      x1

Verse       x2

Chorus      x1

Riff 1      x1

Pause

Riff 2      x1

Chorus      x1

Ending      x1
Автор: muzzon