Gitarizm

» Тексты и аккорды к песням для гитары » Zebrahead - Get Back bass (табулатура)

Гитаризм

Конкурс на лучший кавер
Здесь могла бы быть Ваша реклама!
Хотите узнать как играть на гитаре? Гитаризм — лучший самоучитель гитары для начинающих!

Zebrahead - Get Back bass (табулатура)


-------------------------------------------------------------------------------
Get Back - Zebrahead
-------------------------------------------------------------------------------




Written By: Zebrahead
Song: Get Back
Tabbed By: Adam Doogan-Smith	
E-mail: [email protected]

Standard Tuning: E,A,D,G

I think it is the best punk-rap song of all time. Bass line comes in at 15.5s
Verse
G-------------0-----I
D----22-----0---0---I
A--0----0-----------I
E---------3---------I

Bridge
G----------------I
D----------------I
A---0--1111------I
E-----------44---I

Chorus
G-------------------------I
D-------00000-------------I
A------------------1111---I
E---333-------1111--------I

Ending
G----------------I
D-------0000-----I
A----------------I
E---333------1---I	


Verse   x12
Bridge  x4
Verse   x8
Chorus  x8
Verse   x12
Bridge  x4
Chorus  x8
Verse with no bass line
Bridge  x4
Chorus  x8
Ending  x1
Автор: muzzon