Gitarizm

Гитаризм

Конкурс на лучший кавер
Здесь могла бы быть Ваша реклама!
Хотите узнать как играть на гитаре? Гитаризм — лучший самоучитель гитары для начинающих!

Zebrahead - Fly Daze (табулатура)


Band: Zebrahead
Album: Waste Of Mind (1998)
Song: Fly Daze



Solo:

---------------------------------------------------------------------------|
---------------------------------------------------------------------------|
--------------------------------------------------------12-14-b14-12-B14---|
---------12-------12-------12-b14-12-14-12h14-12~-12h14--------------------|
---12h14----12h14----12h14-------------------------------------------------|
---------------------------------------------------------------------------|

----------------------------------------------------------------------------------|
-------------------------------12h14-12h14-15p14--------------------12-15p14p12---|
--------------h12h14------12h14-----------------14p12-----------------------------|
--------h12h14-------12h14---------------------------14-14p12-12-B14--------------|
---12h14--------------------------------------------------------------------------|
----------------------------------------------------------------------------------|
                            
----------------------------|
---12-14-----------------12-|
---------12-b14-12-14-12----|
----------------------------|
----------------------------|
----------------------------|

-----------------------------------------------------|
---17-17-15-15----17-17-15-15----17p15-14-12-14p12---|
---------------14-------------14---------------------|
-----------------------------------------------------|
-----------------------------------------------------|
-----------------------------------------------------|

-----------------------------------------------------------------------------------|
------------12--------------12----------15--15-14-----17-15-14-15-14-12------------|
---14-14p12----14-12-b14-12----14----14-----------14--------------------14-12h14---|
--------------------------------14-------------------------------------------------|
-----------------------------------------------------------------------------------|
-----------------------------------------------------------------------------------|

---------------------------|
---------------------------|
---12h14-12h14-12h14-12~---|
---------------------------|
---------------------------|
---------------------------|

h = hammer-on
p = pull-off
~ = let ring
Автор: muzzon