Gitarizm

» Тексты и аккорды к песням для гитары » Zebrahead - Feel This Way bass (табулатура)

Гитаризм

Конкурс на лучший кавер
Здесь могла бы быть Ваша реклама!
Хотите узнать как играть на гитаре? Гитаризм — лучший самоучитель гитары для начинающих!

Zebrahead - Feel This Way bass (табулатура)


Band:   Zebrahead
Song:   Feel This Way
Album:  Waste of Mind

Verse:
-------------------------|-----------------------|
-(a-bunch-of-times)------|----------------7-2----|
-------------------------|------7-2--3-5---------|
-0-0--4-4--0-5--0-5------|-0-4-------------------|

Chorus:
---------------------------------------------|
---------------------------------------------|
-2-2-2-2-------------------------------------|
----------0-0-0-0--5-5-5-5--7-7-7-7--5-6-----|

Verse

Chorus

(Chorus during solo)

part where it's just bass:
------------------------------------|
------------------------------------|
-----7------------0--0-0-2--2-2-----|
-0-0---5---5-5--5-------------------|

Chorus

(Chorus during solo into fade)




Автор: muzzon