Gitarizm

Гитаризм

Конкурс на лучший кавер
Здесь могла бы быть Ваша реклама!
Хотите узнать как играть на гитаре? Гитаризм — лучший самоучитель гитары для начинающих!

Zebrahead - Check bass (табулатура)


This is a great song and here is the bass tabs.

Song:Check
Album:Waste of Mind
Date:4-16-04
Tabber:DROid112(aka Logguna of Socastee)


Intro/Verse

--------------------
---------------5-5--
-------4-4-3-3------
---2-2--------------


Chorus

--------------------
--------------------
--------3-3-1-1-1---
--1-1-1-------------

Post Chorus

---------------------
---------------------
---------------------
----1---1---1---1---1

Interlude

-----9------|-----9--10-----|------9--------|------------
---7---9----|---7---8---9---|----7---9------|------------
---------7--|---------------|----------7----|------------
------------|---------------|---------------|----00---00-
 3 times       4th time         3 times         4th time


I'm not too sure the Interlude is exactly right but its close enough. Enjoy!
Автор: muzzon