Gitarizm

Гитаризм

Конкурс на лучший кавер
Здесь могла бы быть Ваша реклама!
Хотите узнать как играть на гитаре? Гитаризм — лучший самоучитель гитары для начинающих!

Zdob Si Zdub - Здубий батець таре


Intro:
 
1|----5-4-2-1---1--4-2-1--------5-4-2-1---1--1-2-4-1-2-----
2|-2----------2----------3-0-2----------2--------------3-2-
3|---------------------------------------------------------

  -5-4-2-1---1--4-2-1--------2-1----------1-2-4-1-2------|
  ---------2----------3-2-0------3-2-0-2--2-2-2-2-2-3-2--|
  -------------------------------------------------------|

Проигрыш:

1|-------------------------------------------------------|
2|-------------------------------------------------------|
3|-----5/6-6-6-5-----5-6-6-6-5-----5-6-6-6-5--3-3-3-3-3--|
4|--6--3/4-4-4-3--6--3/4-4-4-3--6--3/4-4-4-3--1-1-1-1-1--|
5|--4-------------4-------------4------------------------|
6|-------------------------------------------------------|

Куплет:

1|---------------|
2|---------------|
3|---------------| X4  Играется первые две строчки куплета
4|--6--6-6--6-6--|
5|--4--4-4--4-4--|
6|---------------|

(Слушайте внимательно эти две части,
двойные ноты на одной струне играются очень быстро)

1|--------------------|
2|--------------------|
3|--------------------|
4|-----3-4-3-3--------|
5|--4----------4-2-4--|
6|--------------------|

1|-----------------------------------|
2|-----------------------------------|
3|-----------------------------------|
4|-----4-3-3-4-3------3-4-4-4-3------|
5|--2------------5-4------------5-4--|
6|-----------------------------------|

Текст взят с неофициального сайта Zdob si Zdub

 C#5
Hai Zdob Si Zdub Bate doba de la Prut
Partu feti - frumosi flacai Dau foiala cu scintei
Hai, Zdob Si Zdub Polobocul n-are dop
 C#5
Patru lautari holtei Sint nebunii lumii ei
Hai Zdob Si Zdub Ei bay doba pin-o rup
Hartiala pin la culme Oboseala multa-n trup
Hai Zdob Si Zdub Vinului nuisint un rob
n-am crescut chair in bordei Hai strigati odata -hai!
Luni, marti, mercuri, joi Trag in jug ca niste boi
Voce, bas, chitara,toba Noi cintam doar pentru voi
Vara, primavara Chiar din zori si pina-n seara
Timpul trece prin cutremuri Ce moravuri si ce vremuri
Melodiile nu latra Dinga face must la Vatra
"Vintul bate, frunza zboara Viata lunga se strecoara"
Nunta si cumatrie tot in jur e bucurie
Nu-s parale, este foc Impreuna - hai la joc !!!
Slamul ca viltoare Imbulzeala mare
De colo colo colo Zdubii - batet tare!
Hai, Zdob Si Zdub - patru feti frumosi flacai!
Hai, Zdob Si Zdub - bat in doba pin-o rup!
Hai, Zdob Si Zdub - da foiala cu scintei!
Hai, Zdob Si Zdub - sint nebunii lumii ei!
Melodiile nu latra ….
Автор: muzzon