Gitarizm

Гитаризм

Конкурс на лучший кавер
Здесь могла бы быть Ваша реклама!
Хотите узнать как играть на гитаре? Гитаризм — лучший самоучитель гитары для начинающих!

Zaza Neil - I m alright (бас)




Im skipping the intro because, someone has already done it, This tab has taken me about 2 days to do,
Lol this is my first tab IЎ¦ve ever done, IЎ¦ll try to put the rest in if I can be asked here it is enjoy.


1 min
                        ----m---              B					    B
E---------------------------------------------------------------------------------16-17-19(21)-19~~~---------
BЎX5~~~~5-4------------------------------------9(10)-9--7---------/14-14-16-17--19--------------------------
G---------------------------------9~~/11~~~--------------9~~~~-----------------------------------------------
D-----------6/7~~~~~~~~-----9-11-----------------------------------------------------------------------------
A-----------------------11------------------------------------------------------------------------------------
E------------------------------------------------------------------------------------------------------------

1.19Mins
			 B								     l---mute G String--l
E------------------------------------------------------------------16-17-16-------19~~~~------------------12-
B-5~~~~-5---5/7-----7-9-9-9-7-5-7~~~~--17~~~~-17----17/19-------19----------19-17-----------9---10---12------
G---------4-----4-4------------------------------16-------16-16--------------------------/9---9----9----9----
D------------------------------------------------------------------------------------------------------------
A------------------------------------------------------------------------------------------------------------
E------------------------------------------------------------------------------------------------------------

                      1.37Min
l--mute G StringЎXl	        B             l-Mute Aamp;D StringЎXl
E----11---9-------------------------------------------------------------19-16HP17----------------------------
B--------------12-------5ЎX5/7-10(11)-9-10-7------9/10-----7/9--------17-----------19-17-------12-------17----
G--9----9---9---------4--------------------------------------------------------------------------------------
D----------------------------------------------9--------9---------18-----------------------14-------19-------
A--------------------------------------------7--------6--------16-----------------------11-------16----------
E------------------------------------------------------------------------------------------------------------

	     1.47Min
									 T
E------------17-19-17-19--------------------------------------------------------------------------12-11-----
B--------19------------------9---7-10-5-4------------------------------------7-9/10-------------------------
G-----------------------------------------4-----------------------------------------9-/11-9-9~~~~-----------
D-----21-------------------9---9------------/6~~~~-4-2-1-2-----------------9--------------------------------
A--18--------------------7---------------------------------/4-2-2~~~~-16-7----------------------------------
E-----------------------------------------------------------------------------------------------------------

2.00Min
					      ----Just play around here, do this part 5 times----
E-------12-14-16-14-16-14-16-17-16-16-21-19-----------------------------------------------------------------
BЎX12/14---------------------------------------7---7---7-----7---7--2-2--7---7---7---7-----7--7--------------
G-------------------------------------------4---4---4---4-4---4----5-5--4-4---4---4---4-4---4---------------
D-----------------------------------------------------------------------------------------------------------
A-----------------------------------------------------------------------------------------------------------
E-----------------------------------------------------------------------------------------------------------

2.18Min
	     B							    B				    B
E---------------------------------------------------------------16(17)-16-------------------16-16(17)-16-----
B------9-10-10(12)-----------/12-10-9---------/16-16~~~-17----------------16-17~~~-19~~~-19------------------
G--/11--------------9-9~~~~-----------11-9-11----------------------------------------------------------------
D------------------------------------------------------------------------------------------------------------
A------------------------------------------------------------------------------------------------------------
E------------------------------------------------------------------------------------------------------------

2.31 Min
										          B
E--16-----------------------------------12-11----------------------------------------------------------------
B-----19~~~~------7-9-/10-9-10-/12-10-9-------14~~~~--------14-16-/17-16-17-16-17-/19-19(21)-17p19-----------
G------------------------------------------------------------------------------------------------------------
D--------------------------------------------------------16--------------------------------------------------
A------------/7-9------------------------------------/14-----------------------------------------------------
E------------------------------------------------------------------------------------------------------------

2.42Min
			  B
E--------------16-------19(21)-19~~~~~------------------------------------------------------------------------
B--19-------18----19-17-----------------------14----16----17-------14-16-17-p17p17p17p17p17-------------------
G-------------------------------------------------------------------------------------------------------------
D--------18--------------------------------14----14----14-------16--------------------------------------------
A-----16--------------------------------12-------------------13-----------------------------------------------
E-------------------------------------------------------------------------------------------------------------

2.52Min
			  									  Intro---„і
E------------------------------------------------------------------------------------------19-----------------
B--------16----17----19-------16-17-19~~-16--16-16--14---2------4-----7-------16--------19--------------------
G----------------------------------------17--16-16--14---2----------------------------------------------------
D-----16----16----16-------18------------17--16-16--14---2----4-----9------16--------21-----------------------
A--15-------------------15---------------16--14-14--12------2-----6-----14--------18--------------------------
E-------------------------------------------------------------------------------------------------------------




Автор: muzzon