Gitarizm

Гитаризм

Конкурс на лучший кавер
Здесь могла бы быть Ваша реклама!
Хотите узнать как играть на гитаре? Гитаризм — лучший самоучитель гитары для начинающих!

Zappa Frank - The Mammy Anthem


3X
D#
-2-2-2---3---1---2---------------!!------------!
-3-3-3---3---1---3-----10---12---!!-8----------!
-2-2-2---4---2---2-----10---12---!!-8----------!
-0-0-0---5---3---0-----10---12---!!-8----------!
-----------------------8----10---!!-6----------!
---------------------------------!!------------!

(Note: Repeat section before double line.)

Repeat section A then:

(section B)
3X
-------!--------!-------!-------!!-----------------------!
-------!--------!-------!-------!!-----------------------!
-------!--------!-------!-------!!-5-5-5-5--5-5-5--5-5-5-!
--8----!-11-----!-6-----!-8-----!!-5-5-5-5--5-5-5--5-5-5-!
--6----!-9------!-4-----!-6-----!!-3-3-0-3--3-0-3--3-0-3-!
--9----!-12-----!-7-----!-9-----!!-----------------------!

The repeated section is a combination of the various notes played by various
instruments eg the Bb series is Frank's guitar. The next riff segues
straight into section A again. This time in section A there is a little riff
played after the G:

--------------------------------------
--------------------------------------
--------------------------------------
-------0------------------------------
-3-3-2---3----3-2-3-2-----------------
----------------------1---------------

After this there is a solo in a kind of B again and
finally section A again.
Автор: muzzon