Gitarizm

Гитаризм

Конкурс на лучший кавер
Здесь могла бы быть Ваша реклама!
Хотите узнать как играть на гитаре? Гитаризм — лучший самоучитель гитары для начинающих!

Zappa Frank - Mom And Dad


E
Mama! Mama! Some - one said they made some noise
 
Em 
the cops have shot some girls and boys.

Am9
You'll sit home and drink all night they looked too weird it

Em 
served them right.

(repeat the above)

F6/9
Ever take a minute just to show a real emotion,

in between the moisture cream and velvet facial lotion?

Abmaj9
Ever tell your kids you're glad that they can think?

Abmaj7
Ever say you loved them? Ever let them watch you drink?

E
Ever wonder why your daughter looked so sad? It's

Em 
such a drag to love a plastic Mom and Dad.

E
Mama! Mama! Your child was killed in the park to-day,

Em 
Shot by the cops as she quietly lay.

Em
By the side of the creeps she knew. They killed her too.


The chord shapes are

F
-0----3-----0-----0-----2-------2----1-----|
-3----1-----3-----3-----0-------3----1-----|
-0----2-----0-----2-----1-------4----2-----|
-2----2-----2-----0-----2-------2----3-----|
-2----x-----3-----------2-------3----------|
-0----1-----------------0------------------|

Abmaj7
------0---3-----1------3------3------------|
-3----1---3-----1------4------1------------|
-2----4---2-----2------3------1------------|
-2----2---3-----3------5------1------------|
-3----0---------1------3-------------------|
----------------1------4-------------------|

Also the opening riff which reappears through out the song (marked as Em ) is
this:

-------0---------------------------------|
-0-2-3-2-3---2-3-2-0---2-0---------------|
-0-2-4---4---2-----0-2-2-0---------------|
-2-------------------4-------------------|
-2---------------------------------------|
-0---------------------------------------|

The ending tacet is:

They killed her too.
---------------------------0-------------|
------------------0--------0-------------|
-0----------------0---6-7--0-------------|
------4------2-0--2--------2-------------|
------------------2---4-5--2-------------|
------------------0--------0-------------|
Автор: muzzon