Gitarizm

Гитаризм

Конкурс на лучший кавер
Здесь могла бы быть Ваша реклама!
Хотите узнать как играть на гитаре? Гитаризм — лучший самоучитель гитары для начинающих!

Zappa Frank - King Kong


--6-------------------------------------|
----9-7----9-7------7-------------------|
--------8------8-6----8-6-5--8-6-5------|
-----------------------------------8----|
----------------------------------------|
----------------------------------------|
 
----------------------------------------|
--------------------------7----9--------|
------------------6---8-----6----8------|
------------6---8---6---8---------------|
----6---9-6---9-------------------------|
--8---9---------------------------------|

--6-------------------------------------|
----9-7------7---9-7--6---7-6------6----|
--------8-6----6--------8------8-6---8--|
----------------------------------------|
----------------------------------------|
----------------------------------------|

---------------------------6-8--11-8----|
-----------------------7-9--------------|
--6-8-5-6----------6-8------------------|
----------8---6--8----------------------|
------------9---------------------------|
----------------------------------------|

After this the live bands then often play this riff before they start blowing.

----------------------------------------------|
----------------------------------------------|
----------------------------------------------|
--10--10-9-10--10-9-10--10-9-10-12-9-9--9p7---|
----------------------------------------------|
----------------------------------------------|
Автор: muzzon