Gitarizm

Гитаризм

Конкурс на лучший кавер
Здесь могла бы быть Ваша реклама!
Хотите узнать как играть на гитаре? Гитаризм — лучший самоучитель гитары для начинающих!

Zappa Frank - Im The Slime


Riff 1:
E|---------------------------------------------------------------------|
B|-----5--7---5------------------------5--7-----5----------------------|
G|--6-------6--- 6p4-----4-6-4-----6--------6-----6p4------4--6--------|
D|---------------------7---------------------------------7--------7--4-|
A|---------------------------------------------------------------------|
E|---------------------------------------------------------------------|
 
Play that Riff four times, then on the fifth time play this...

Riff 2:
E|----------------|
B|--5-----------5-|
G|----7--6---4----|
D|---------7------|
A|----------------|
E|----------------|

Play that Riff 3 times, and on the fourth time it ends like this...

E|-----------------------|
B|-----------------------|
G|--4--5--4--------------|
D|------------7--5--4--3-|
A|-----------------------|
E|----------- -----------|

Then Frank does his talking which is done in the key of D, and the music in the
backround is just like fooling around in D. Then he goes back to riff 1, and
then enters the solo.
Автор: muzzon