Gitarizm

Гитаризм

Конкурс на лучший кавер
Здесь могла бы быть Ваша реклама!
Хотите узнать как играть на гитаре? Гитаризм — лучший самоучитель гитары для начинающих!

Щербаков Михаил - Колыбельная безумца


Спите, мои благородные предки,
         спите, мои полководцы, мои короли.
 Скройтесь во мраке своих каменистых столетий,
  своих незапамятных темных веков.
 Мирно покойтесь -
  вы все уже совершили, вы сделали больше, чем можно,
   поэтому ваши свершения неоценимы и нету вам равных -
    можете спать.
 Пусть отдыхают
  также вернейшие воины ваши, соавторы ваших побед.
 Пусть себе дремлют тяжелые всадники,
  лучники, бомбометатели и трубачи.
 Пусть почивают и прочие -
  то есть погонщики разной полезной скотины,
   и слуги, кормившие ваших собак,
    и сами собаки, и все их мохнатые дети.
 Я же, покуда вы спите,
  подвергну сомнению древние книги, воспевшие вас.
 Следом за тем я подвергну сомнению
  подвиги ваши и важность любого из них.
 После чего, разумеется,
  я и самих вас подвергну сомнению,
   а заодно уж, конечно, и воинов ваших,
    и даже ни в чем не повинных слуг и собак.
 И, наконец, я подвергну сомненью
  сомненье свое и себя самого вместе с ним...
 Спите, мои дорогие. Когда вы проснетесь, увидите,
  все уже будет не так...
Tablature:
Chords:
Am6
e|0-----------0-----------|2-----------2-----------|
b|----2----2------2----2--|---1-----1------1----1--|
g|--2------2----2------2--|--2------2----2------2--|
d|------------------------|------------------------|
a|0-----------0-----------|0-----------0-----------|
e|------0-----------0-----|------0-----------0-----|
  Am6
e|0-----------0-----------|2-----------2-----------|
b|----2----2------2----2--|---1-----1------1----1--|
g|--2------2----2------2--|--2------2----2------2--|
d|------------------------|------------------------|
a|0-----------0-----------|0-----------0-----------|
e|------0-----------0-----|------0-----------0-----|
Spite              predki, spite            moi koro-
Voice: e c#c#c#c#c#c#c#c#c# c#  e c c c c c c c c c c c
  Am6
e|0-----------0-----------|2-----------2-----------|
b|----2----2------2----2--|---1-----1------1----1--|
g|--2------2----2------2--|--2------2----2------2--| (1)
d|------------------------|------------------------|
a|0-----------0-----------|0-----------0-----------|
e|------0-----------0-----|------0-----------0-----|
  -li.
  h
  Em
e|3--------3--------2----0|------------------------|
b|----0----0-----0-----0--|0-----------------------|
g|--0------------0-----0--|---3--4-----------------|
d|------------------------|---------4--5-----------|
a|------2-----------2-----|---------------6--7-----|
e|0-----------0-----------|0--------------------7--|
Skrojtes"                                 temnyx ve-
  g e e e e e e e e e e e  d#c c c c c c c c c c c
  Adim
e|0-----------0-----------|2-----------5-----------|
b|----1----1------1----1--|----1----1------4----4--|
g|--0------0----0------0--|--2------2----5------5--|
d|------------------------|1-----------4-----------|
a|3-----------3-----------|------0-----------0-----|
e|------3-----------3-----|------------------------|
-kov.
  h
  Em+7
e|7-----------------------|------------------------|
b|----0----0--1--------1--|2--------2--3-----4-----|
g|--0------0------0----0--|----0----0--0-----0-----|
d|--------------2------2--|--2------2-----2-----2--|
a|------------------------|------2-----------2-----|
e|0-----0-----0-----0-----|0-----------0-----------|
Mirno                                       mozhno, po-
  c c c c c c c  c  c c c  h h h h h h h h h h h h
  Em6
e|0-----------0-----------|------------------------|
b|----1----1------1----1--|0--------0--2--------2--|
g|--2------2----2------2--|----0----0------0----0--|
d|------------------------|--2-----------2---------|
a|0-----------0-----------|------2-----------2-----|
e|------0-----------0-----|0-----------0-----------|
  etomu                                     mozhete
  d d d d d d d d d d d d  d d d d d d d  d  d d d
  Dm
e|------------3--------3--|1-----------1-----1-----|
b|3--------3------3----3--|----3-------3-----0-----|
g|----4---------4---------|--2------2--2-----2-----|
d|--5---------------------|0-----------------------|
a|------5-----------5-----|------0-----0-----0-----|
e|3-----------3-----------|------------------------|
spat'
  c
  Am    h/o
e|---------1-----------0--|
b|1-----01----1--------1--|
g|---2--------2--------2--|   ----> (1)
d|------------------------|
a|0-----------0-----------|
e|------0-----------0-----|
 
Final:
Spite moi dorogie                            budet ne
  g e e e e e e e e e e e  d#c c c c c c c c c c c
  Adim
e|0-----------0-----------|2-----------5-----------|
b|----1----1------1----1--|----1----1------4----4--|
g|--0------0----0------0--|--2------2----5------5--|
d|------------------------|1-----------4-----------|  (2)
a|3-----------3-----------|------0-----------0-----|
e|------3-----------3-----|------------------------|
 tak...
  h
  Em   h/o
e|7----67--6--7--2--3-----|------------------------|
b|---0-----------------4--|5-----------------------|
g|------------------------|---3--4-----------------|
d|------------------------|---------4--5-----------|
a|------------------------|---------------6--7-----|
e|0-----------------------|---------------------6--|
 Em
e|0-----------0-----------|2-----------2-----------|3---|
b|----2----2------2----2--|---1-----1------1----1--|0---|
g|--2------2----2------2--|--2------2----2------2--|0---|
d|------------------------|------------------------|2---|
a|0-----------0-----------|0-----------0-----------|2---|
e|------0-----------0-----|------0-----------0-----|0---|
Автор: muzzon