Gitarizm

Гитаризм

Конкурс на лучший кавер
Здесь могла бы быть Ваша реклама!
Хотите узнать как играть на гитаре? Гитаризм — лучший самоучитель гитары для начинающих!

Раное - Саундтреки - Batman And Robin Theme (табулатура)


E----------------------------------------------------------
B----------------------------------------------------------
G----------------------------------------------------------
D----------------------------------------------------------
A----------------------------------------------------------
E-3-3-2-2-1-1-2-2------------------------------------------
               Repeat this 5X  
 
E-----------------------------------------------------------
B-----------------------------------------------------------
G-----------------------------------------------------------
D-----------------------------------------------------------
A-3-3-2-2-1-1-2-2-------------------------------------------
E-----------------------------------------------------------
              Repeat this 2X 
      
E-----------------------------------------------------------
B-----------------------------------------------------------
G-----------------------------------------------------------
D-----------------------------------------------------------
A-----------------------------------------------------------
E-3-3-2-2-1-1-2-2-------------------------------------------
             Repeat this 2X

E-----------------------------------------------------------
B-----------------------------------------------------------
G-----------------------------------------------------------
D-----------------------------------------------------------
A-5-5-4-4-3-3-4-4-3-3-2-2-1-1-2-2---------------------------
E-----------------------------------------------------------  Do this once

Ending        
E-----------------------------------------------------------
B-----------------------------------------------------------
G-----------------------------------------------------------
D-----------------------------------------------------------
A---------------------------------3-3-----------------------
E-3-3-2-2-1-1-2-2-3-3-2-2-1-1-2-2-3-3-----------------------  
Автор: muzzon