Gitarizm

» Тексты и аккорды к песням для гитары » Прилепина Кристина - Котенок в колодце

Гитаризм

Конкурс на лучший кавер
Здесь могла бы быть Ваша реклама!
Хотите узнать как играть на гитаре? Гитаризм — лучший самоучитель гитары для начинающих!

Прилепина Кристина - Котенок в колодце


1|---------0-------|-------2-3-2----|---------0------|
2|-----1-------1---|-----3-------3--|-----0-------0--|
3|---0---0---0---0-|---2-----------2|---0---0---0---0|
4|-----------------|-0--------------|----------------|
5|-3---------------|----------------|----------------|
6|-----------------|----------------|-0--------------|

1|---------0------|
2|-----0-------0--|
3|---0---0---0---0|
4|----------------|
5|----------------|
6|-0--------------|


C             D
Надо мной клочок небесный
Em
Голубой и нежно ясный
C            D
Там сегодня день чудесный
Em
Там сегодня все прекрасно

Припев:
  C              D
А я котенок в колодце
          Em
И лучики солнца
                        C
Не проникают в сердце мое
             D
Котенок в колодце
             Em
Никто не вернется за мной
             C
Никто не придет

А я котенок в колодце
И лучики солнца
Не проникают в сердце мое
Котенок в колодце
Никто не вернется за мной
             С  D Em C D Em
Никто не придет


Здесь внизу темно и сыро
Время пахнет сгнившей тряпкой
Маленький привет от мира
Под моей пушистой лапкой
Мотылек в коготках моих бьется
Еще чуток и жизнь оборвется
Мотылек в коготках моих бьется
Еще чуток...

Припев:
А я котенок в колодце
И лучики солнца
Не проникают в сердце мое
Котенок в колодце
Никто не вернется за мной
Никто не придет

А я котенок в колодце
И лучики солнца
Не проникают в сердце мое
Котенок в колодце
Никто не вернется за мной
Никто не придет
Автор: muzzon