Gitarizm

Гитаризм

Конкурс на лучший кавер
Здесь могла бы быть Ваша реклама!
Хотите узнать как играть на гитаре? Гитаризм — лучший самоучитель гитары для начинающих!
При долинi кущ калини
Dm G C A7 Dm
Нахилився до води (нахилився до води),
Dm G C Am
Ти скажи менi калино,
Dm E Am A7 Dm
Як попала ти сюди (як попала ти сюди),
Dm G C Am
Ти скажи менi калино,
Dm E Am
Як попала ти сюди.
Am E7 Am
По дороге вилась пыль,
C G C A7
Конница скакала,
Dm Am
Под горою разлилась
E7 Am
Алая заря.
Dm G C A7 Dm
Я парнишка верный был,
G C A7
А ты мне сказала,
Dm Am
Мол, другого, мол, другого,
Полетів би-м на край світа,
G D G
Як вітер, що в полі літа, гей,
D H7
В гамерицький край.
Em Am
Лем жаль ми тя, моя хижо...
Em Am Em
Лем жаль ми тя, моя хижо
Am H7 Em
Солом’яна, жаль.

А у нас велика бі
По диким степям Забайкалья,
G
Где золото роют в горах,
C
Бродяга, судьбу проклиная,
G D7 G
Тащился с сумой на плечах.

Идёт он густою тайгою,
Где пташки одни лишь поют,
Котёл его сбоку тревожит,
Сухие коты ноги бьют.

На нём рубашонка худая,
Со
Em H7/F# Em/G Am/C Em/H H7 Em H7
Ой, цветет кали на в поле у ручья
Em H7/F# Em/G Am/C G/D D7 G
Парня моло до го полюбила я
E7 Am Am/D D7 G
Парня полюбила на свою беду
H7/F# H7 Em Am Em/H H7 Em
Не могу открыть ся - слов я не найду
Ой у вишневому саду,
Dm Am
Там соловейко щебетав.
Dm E7
Додому я просилася,
Am
А ти мене все не пускав.

Ти милий мій, а я твоя,
Дивись, яка зійшла зоря,
Проспиться матінка моя -
Буде питать, де була я.

А ти їй дай такий одвіт:
Яка чудова майська
Am E Am E Am G C
Ой, мороз-мороз, не морозь меня,
Dm Am G C E Am
Не морозь меня, моего коня.
C Dm Am G C E Am
Не морозь меня, моего коня.

Не морозь меня, моего коня,
Моего коня белогривого,

Моего коня, белогривого,
У меня жен
Hm F#
Ой, да не вечер, то не вечер
Hm A D A
Мне малым-мало спалось
D A F#
Мне малым-мало спалось
Hm C F Hm A
Ой, да во сне привиделось
D A F#
Мне малым-мало спалось
Hm C F# Hm
Ой, д
Куплет:

e|------------------3-2-0-0----------------------------------------------|
B|0-0-0-0-0-0-0-0-0-0-----------------------------3-3-3-3-3-3-3-3-3|
G|------0-----------0-----------0-----------0-----------4-----2---------|
D|------2---------------------2---2-------2---2---------5-----4---------|
A|------2----
B-----0-----------1-----------5-------3---------3-----0-------0---|
G---0---0-------------2-----5---5---5---5-----------0---0---2---2-|
D---------2---------2---2---------0-------4-----------------------|
A-----------------0---------------------------------------2-------|
E-0-----------------------------------------------3---
исполнении Ж. Бичевской)

Am Dm E Am
Как на грозный Терек выгнали казаки,
G C E
Выгнали казаки сорок тысяч лошадей.
Am Dm G C
И покрылось поле, и покрылся берег
G C E
Сотнями порубленных, по
|---3---5---1--------------3---5-----|-------1---5-------5-----------3-|
|--------------2-----2-------------2-|---2-----------------------------|
|------------------------------0-----|---------------3---------------0-|
|--------------0---------------------|-------------------3-------------|
|---------------------------------
E||------------------------|------------------------|------------------------|
B||--1--1--0--0------------|------------------------|------------------------|
G||----------------2--2----|--2--2--0--0------------|-----------0------0--4--|
D||------------------------|----------------3--3----|--0--2--3---------------|
A||-------
------------1-3------------3--3-3--3-1--1---3-1-0--0-0-1-3------------3--3-----3-1--1----
-3-1-0--0-3-1-0--------------------------------------------------------------------------
--------------------------2-----------------------0--------------------------------------
----0---------------------------------------------0-----------
Целый день стирает прачка,
G(3) D7(5) G
Муж пошел за во- д кой.
E7 Am H7(1) G7(3)
На крыльце сидит собачка
F# F7
С маленькой бородкой.

Целый день она таращит
Умные глазенки,
Если дома кто заплачет —
Заскулит