Gitarizm

Гитаризм

Конкурс на лучший кавер
Здесь могла бы быть Ваша реклама!
Хотите узнать как играть на гитаре? Гитаризм — лучший самоучитель гитары для начинающих!
исполнении Ж. Бичевской)

Am Dm E Am
Как на грозный Терек выгнали казаки,
G C E
Выгнали казаки сорок тысяч лошадей.
Am Dm G C
И покрылось поле, и покрылся берег
G C E
Сотнями порубленных, по
|---3---5---1--------------3---5-----|-------1---5-------5-----------3-|
|--------------2-----2-------------2-|---2-----------------------------|
|------------------------------0-----|---------------3---------------0-|
|--------------0---------------------|-------------------3-------------|
|---------------------------------
E||------------------------|------------------------|------------------------|
B||--1--1--0--0------------|------------------------|------------------------|
G||----------------2--2----|--2--2--0--0------------|-----------0------0--4--|
D||------------------------|----------------3--3----|--0--2--3---------------|
A||-------
------------1-3------------3--3-3--3-1--1---3-1-0--0-0-1-3------------3--3-----3-1--1----
-3-1-0--0-3-1-0--------------------------------------------------------------------------
--------------------------2-----------------------0--------------------------------------
----0---------------------------------------------0-----------
Целый день стирает прачка,
G(3) D7(5) G
Муж пошел за во- д кой.
E7 Am H7(1) G7(3)
На крыльце сидит собачка
F# F7
С маленькой бородкой.

Целый день она таращит
Умные глазенки,
Если дома кто заплачет —
Заскулит