Gitarizm

Гитаризм

Конкурс на лучший кавер
Здесь могла бы быть Ваша реклама!
Хотите узнать как играть на гитаре? Гитаризм — лучший самоучитель гитары для начинающих!
Ти признайся мені звідки в тебе ці чари,
Am
Я без тебе всі дні у полоні печалі.
C G
Може десь у лісах ти чар-зілля збирала,
E Am
Сонце-руту знайшла і мене зчарувала.

Приспів:
Dm
напишите.
1. Em C Am D
Я закрою шторами окно,
Em C Am D
Чтобы не видеть больше ничего
Em C Am D
Я так устал мне всё равно.

Припев: Em C
Стены моя крепость
Am D
А я за стенами сижу-У
Em C
D2 C2
Сотни тысячи солдат
Am# Am
Убегают на пожар,
D2 C2
Только я уже не рад
Am# C2
Сердце бьется как на бат.
D2 C2
Вечер тихий наступил,
Am# Am
Нелюдимый, жуткий он.
D2 C2
Он меня вчера убил
Am# Am
1)--8--5--8--7--3-0---8-7-5-3-5--8-7-3-0---5-5-3-1-0----------
2)---------------------------------------------------3-5-6-5--
При долинi кущ калини
Dm G C A7 Dm
Нахилився до води (нахилився до води),
Dm G C Am
Ти скажи менi калино,
Dm E Am A7 Dm
Як попала ти сюди (як попала ти сюди),
Dm G C Am
Ти скажи менi калино,
Dm E Am
Як попала ти сюди.
Am E7 Am
По дороге вилась пыль,
C G C A7
Конница скакала,
Dm Am
Под горою разлилась
E7 Am
Алая заря.
Dm G C A7 Dm
Я парнишка верный был,
G C A7
А ты мне сказала,
Dm Am
Мол, другого, мол, другого,
Полетів би-м на край світа,
G D G
Як вітер, що в полі літа, гей,
D H7
В гамерицький край.
Em Am
Лем жаль ми тя, моя хижо...
Em Am Em
Лем жаль ми тя, моя хижо
Am H7 Em
Солом’яна, жаль.

А у нас велика бі
По диким степям Забайкалья,
G
Где золото роют в горах,
C
Бродяга, судьбу проклиная,
G D7 G
Тащился с сумой на плечах.

Идёт он густою тайгою,
Где пташки одни лишь поют,
Котёл его сбоку тревожит,
Сухие коты ноги бьют.

На нём рубашонка худая,
Со
Em H7/F# Em/G Am/C Em/H H7 Em H7
Ой, цветет кали на в поле у ручья
Em H7/F# Em/G Am/C G/D D7 G
Парня моло до го полюбила я
E7 Am Am/D D7 G
Парня полюбила на свою беду
H7/F# H7 Em Am Em/H H7 Em
Не могу открыть ся - слов я не найду
Ой у вишневому саду,
Dm Am
Там соловейко щебетав.
Dm E7
Додому я просилася,
Am
А ти мене все не пускав.

Ти милий мій, а я твоя,
Дивись, яка зійшла зоря,
Проспиться матінка моя -
Буде питать, де була я.

А ти їй дай такий одвіт:
Яка чудова майська
Am E Am E Am G C
Ой, мороз-мороз, не морозь меня,
Dm Am G C E Am
Не морозь меня, моего коня.
C Dm Am G C E Am
Не морозь меня, моего коня.

Не морозь меня, моего коня,
Моего коня белогривого,

Моего коня, белогривого,
У меня жен
Hm F#
Ой, да не вечер, то не вечер
Hm A D A
Мне малым-мало спалось
D A F#
Мне малым-мало спалось
Hm C F Hm A
Ой, да во сне привиделось
D A F#
Мне малым-мало спалось
Hm C F# Hm
Ой, д
Куплет:

e|------------------3-2-0-0----------------------------------------------|
B|0-0-0-0-0-0-0-0-0-0-----------------------------3-3-3-3-3-3-3-3-3|
G|------0-----------0-----------0-----------0-----------4-----2---------|
D|------2---------------------2---2-------2---2---------5-----4---------|
A|------2----
B-----0-----------1-----------5-------3---------3-----0-------0---|
G---0---0-------------2-----5---5---5---5-----------0---0---2---2-|
D---------2---------2---2---------0-------4-----------------------|
A-----------------0---------------------------------------2-------|
E-0-----------------------------------------------3---
исполнении Ж. Бичевской)

Am Dm E Am
Как на грозный Терек выгнали казаки,
G C E
Выгнали казаки сорок тысяч лошадей.
Am Dm G C
И покрылось поле, и покрылся берег
G C E
Сотнями порубленных, по