Gitarizm

Гитаризм

Конкурс на лучший кавер
Здесь могла бы быть Ваша реклама!
Хотите узнать как играть на гитаре? Гитаризм — лучший самоучитель гитары для начинающих!
Вася

G F# E D
(1) Весь в голде на 600-м
C D
За рулём собственноручно
Ехал Вася по Можайке он в "Титаник" торопился
Слушал techno и бодрился
Улыбался, веселился
G F# E D C D C D E D
Никого он не боялся и в окошко матерился
Em Cmaj7 Am7 H7
На небе вороны, под небом монахи,
И я между ними в расшитой рубахе,
Cmaj7 Am7 H7
чежу на просторе, легка и пригожа,
Em Cmaj7 Am7 H7
И солнце взрослее
Два корабля

Проигрыш: |Am:Asus2|Asus:Am|C:Cmaj7|Em7+5:C|

Am C
(1) Умирает капитан, и уходит в океан,
Dm C
Оставляя за собой розовую нить.
Am C
Он
F#m E D C#m
F#m E D C#m
D A C#m
D C#m F#m

1. He deals the cards as a meditation
And those he plays never suspect
He doesnґt play for the money he wins
He doesnґt play for respect
He deals the cards to find the answer
Intro: Cm
[1+---------------------------------------------------
2+---4-----4-----4-----4-----4-----4-----4-----4-----
3+---5-----5-----5-----5-----5-----5-----5-----5-----
4+------5-----5-----5-----5-----5-----5-----5-----5--
5+---------------------------------------------------
6+------------------
Em D C
So close no matter how far
couldn? t be much more from the heart
forever trusting who we are
and nothing else matters
never opened myself this way
life is ours, we live it our way
all these words I don? t just say
and nothing else matters
trust I
2)-------------
3)-------------
4)-----2-2-0-2-
5)-2-2---------
6)-------------
(играется в начале каждой строчки, а потом аккорд Em пять раз 1-11-11)

Вот идет караван
по зыбучим пескам
он везет анашу
В свой родной Пакистан

припев:(не знаю может кто знает пришлити)
Вступление:
e|-----3-2-0--------------------------------|
B|-----0-0-----3-1-0---3-1-0----------------|
G|---0-------0-------0--------0---2--0------|
D|------------------------------------------|
A|---------3---------------2----------------|
Подборка: Евгений Лукашик, Андрей Крутиков
Для начала хочу извиниться за то, что не знаю правильного обозначения этих аккордов.
Но подборка от этого хуже не становится! Не пугайтесь, а попробуйте сыграть!

Kv1 – [xx664x]
Kv2 – [xxx775]
Kv3 – [xxx220]
Kv4 – [xx4420]

Akk1 – [799977]
Akk2 –
1://-0-3-2-

Em Am
Курильщикам трудно без плана,
C D Em
По всюду плывут миражи.
Em Am
Идёт караван из Ирана,
C D Em
А с ним сто пудов анаши.
ПРИПЕВ:

(проигрыш) Em Am
Душистый план,
C
----------------------------------------------------------------------------
--------------------------------------------------1-0-----------------------
-----------------------------2-2-1-2-4--2-1-2-4--------2-1-4-2---2-0----0---
-2-2-1-2-3-2---0-----------------------------------------------------3-2--3-
-----------------3
------1-----3-1---3--|------0-3-3-1-0-5--
----2----------------|----1--------------

--0---0-1-0-----0----|----3-1-0----------
----4-------1-----3--|--0-------0-3-1----
--------------2------|----------------2--
Am Dm E
Шаланды полные кефали
Am A7
В Одессy Kостя пpиво
e------------------------1-0-1-0----
B-1---3---0-1---3------1-2-1-----3--
G-2-2-2-2---2-2-2-2----2-3-0-----2--
D-2---0-2---2---0-2----3---------0--
A-------0---------0-----------------
E-----------------------------------
Эй, ухнем! Эй, ухнем! Ещё ра-а-аз.
Am DmAm DmAm
e--------------------
Черный ворон, черный ворон
Gm Dm D7 Gm
Что ты вьешься надо мной
F B C7 Dm
Ты добычи не дождешься
A7 Dm
Черный ворон, я не твой

Что ты когти запускаешь
Над моею головой
Иль добычу чаешь
Черный ворон я не твой
Черный ворон, черный ворон
Am Dm Am
Что ты вьешься надо мной
C G Am
Ты добычи не дождешься
Dm E Am
Черный ворон, я не твой

Что ты когти запускаешь
Над моею головой
Иль добычу чаешь
Черный ворон я не твой

Завяжу