Gitarizm

Гитаризм

Конкурс на лучший кавер
Здесь могла бы быть Ваша реклама!
Хотите узнать как играть на гитаре? Гитаризм — лучший самоучитель гитары для начинающих!
За рекой, у леса, рос кудрявый клен,
G C Em
В белую березу был тот клен влюблен.
Am Dm
И когда над речкой ветер затихал,
Em Am
Он березе эту песню напевал.
Am Dm
Пр
Am Dm
У тихони речки рос кудрявый клен,
G C E
В белую березу был тот клен влюблен,
Am A7* Dm
И когда над речкой ветер затихал,
E Am
Он березе белой песню напевал.

Припев:
A7* A7
F#m G- 2 раза

F#m
Он или ты

Шаг или бег
G
Просто мечты

Тают как снег

F#m
Ложь или нет

Я или мы
G
Что за ответ

Ждешь от зимы

Am
Мне в никуда

Нам не сейчас
Hm
Чьи города
Музыка Э. Колмановекого.

Am Dm E Am
Бежит река, в тумане тает,
Dm G C A7
Бежит она, меня дразня,
Dm E Am
А кавалеров мне вполне хватает,
F Dm E Am
Но нет любви хорошей у меня.

Танцую я, фогстроты, вальсы,
Был вечер, падал белый снег,
Em
Я попросился на ночь в дом.
Am
Там в черном платье менестрель
Em
Пел песни перед очагом.
Dm
Он пел о проклятых вождях.
Am
О том, что свет не есть – добро,
F
О позабытых королях,
Em Am
И люди слушали его.

Он пе
Am
Арго!
Dm6 E7 Am Dm6 E7
Разве путь твой ближе, чем дорога Млечная?
Am
Арго!
Dm7 G7 C
О каких потерях плачет птица встречная?
Dm6 E7
Парус над тобой,
Am Am/G
Поднятый судьбой,-
Am
Шпалы, шпалы, рельсы, рельсы
Fm
Ехал поезд из Одессы
Am
Тук, тук, тук стучат колёса
Fm
Прыг, прыг, прыг звучит баян
C E
А по небу, а по небу
Am
В голубом аэроплане
C E
Пролитал усатый лётчик
Am
С сигаретою в зубах
Припев:

Отец его был акробатом,
Dm Em
А мать наездницей была
И как с батута был подкинут,
Он в мир добра и зла.
И колыбель его качалась
Почти над самой клеткой льва,
И мальчик слышал то и дело
Судьбы своей слова.

Пр:
Dm G
Ты был рожден акробатом,
C
Снова корабли уходят в море
Dm G
Встречи с ними ты уже не жди
Скоро мы расстанемся с тобою
Вспоминая солнечные дни
Припев
C Am
Я подарю тебе
Dm G
Алые паруса
Я подарю тебе
Синие небеса, небеса

Если ты не любишь, то не надо
Я
Am
Один мой товаpищ любил пpыгнуть с вышки,
G
И в воздухе веpтелся, как волчок.
Am
Тепеpь он в больнице, замучала отдышка -
Dm Am G Am
Hе тем удаpился об воду, дуpачок!

[Пpипев]

Hm
Таких не беpут в космонавты!
D
2/-----------------10---------------------9
3/-9-8-9-10-9---------9-8-9-10-9-

Am
1/-----------------10-7-
2/-----------------------------9-5-
3/-9-8-9-10-9---------------------------7-6-5-

Dm7
D||---------------------|--2------2------2----|---------------------|
A||--0------0------0----|--2------2------2----|--0------0------0----|
F||--1------1------1----|--3------3------3----|--1------1------1----|
C||--2------2------2----|--4------4------4----|--2------2------2----|
G||--2------------------|--4------------------
AM Em H Em

Verse 1:
Em H
Мы каждый день, мы каждый день в контру пуляем,
Am D7 G H
Берем броню, четыре-три или калаш,
Em E7 Am
В аркаду прем или с респа не вылезаем,
F# H
Там еще басс, и слой какой-то, но они уж очень простенькие

E||------------------------|--------------------------|------------------------|
B||------------------------|--------------------------|------------------------|
G||--------------0---------|--------------------------|--------------0---------|
D||-----4--3-----
b------------------------
g------------------------ part 1 * 4
d-------------------------
a--4444444-4444444-4444444
e--2222220-2222220-2222220
( p.m. ) ( p.m. ) ( p.m.)

e--------------
b--------------
g-------------- part 2 после этой части идет сразу же первая