Gitarizm

Гитаризм

Конкурс на лучший кавер
Здесь могла бы быть Ваша реклама!
Хотите узнать как играть на гитаре? Гитаризм — лучший самоучитель гитары для начинающих!

Ночные снайперы - Ветер и ночь (3)


Вот solo, которое снайперы играют несколько раз по ходу песни. 

p-pull
h-hammer

|-------------------------|-------11-9------------------------|
|-------------------------|------------12-11-12-9-------------|
|-8h7p8-------------------|-----------------------11-10-8-7-8-|
|-------------------------|-9h8p9-----------------------------|
|-------------------------|-----------------------------------|
|-------------------------|-----------------------------------|

Вариант 1:
|-------------------------|
|----------9--------------|
|-11h10p11---10--8-7------|
|-------------------------|
|-------------------------|
|-------------------------|

Вариант 2:
|-------------------------|
|-------------------------|
|-11h10p11--------10h9p10-|
|-------------------------|
|-------------------------|
|-------------------------|

Сами снайперы чередуют во время игры эти варианты.

 Dm
Ветер и ночь ветер и ночь ветер и ты
 B				           F	A
Ты наконец ты наконец вместе со мной
Dm
Скоро рассвет скоро рассвет туман на реке
B					
Белый как лунь белый как лунь чистый как снег
F	               	A
В горах где построишь дом ты 

Припев:
	Gm    G#  A
	Дым, дым, дым 
	Gm	  G#	A
	Солнце в рукаве того кто хочет жить здесь

Мне бы к тебе мне бы к тебе мне бы с тобой
Те же слова те же слова та же любовь
Ночи нежны может ты спишь воздухом ли
Сможешь опять птицей летишь в царство небес
Туда где построишь дом ты

Припев

Просто хочу просто хочу быть рядом с тобой
Просто люблю просто тебя и просто такой
Пахнет трава мокрые пни капли дождя
Осень вернет в город вернет где помнят тебя
Туда где дом твой и ты

Припев

Ветер и ночь ветер и ночь ветер и ты
Ты наконец ты наконец вместе со мной
Автор: muzzon