Gitarizm

Гитаризм

Конкурс на лучший кавер
Здесь могла бы быть Ваша реклама!
Хотите узнать как играть на гитаре? Гитаризм — лучший самоучитель гитары для начинающих!

Монгол Шуудан - Граната


Em                    Am         
На поясе болтается граната
B                        Em
В руках сжимаю знамя красное,
Em                         Am
На крыльце стоит солдат лохматый
B                     Em E   
В штабе,говорит,заразные,
D       B            Em
Я ему даю пакет с печатями
D            B        Em E
А он стоит задорно хохоча, 
Am           D         G    Em
Гони этого красного кричат ему }
Am            B        Em      } 2 раза
Опять ошибка вышла сгоряча.    }



Блестят на солнце царские погоны 
В руках держу я знамя белое. 
Сидит детина с маузером новым 
А рядом с ним все войско смелое. 
Говорю пришел служить отчизне я, 
А он стоит задороно хохоча, 
И в рожу баба двинула капризная, 
Опять ошибка вышла сгоряча. 
И в рожу баба двинула капризная, 
Опять ошибка вышла сгоряча.


 
На груди моей тельняшка рвана 
В руках держу я знамя чёрное. 
Меня взяла Махновская охрана 
И кричат слова мне вздорные. 
И вот хрустя морковкой с Лёвкой Грозным 
На крылечко вышел сам отец 
Посмотрел,и крикнул на березу 
Ошибка вышла точно всё... 

 


                 ==Соло==

E-------------|-------------|---------------------|
B-------------|-------------|------------1-0------|
G-------------|-------------|-----2-1--2V----2----|
D-------------|-2-1-2-------|----2-------------3V-|
A--0-2-3-2h3-0|-------3-2-0-|-2-3-----------------|
E-0-----------|-------------|---------------------|

  
E---------------------------|---------------------|
B-----0-1-0-----------------|---------------------|
G---2-------2---2-0---------|---------------------|
D-2-----------2-----3-2h3-0-|-0-2-3-2h3-0---------|
A---------------------------|-------------3-2h3-0-|
E---------------------------|---------------------|
Автор: muzzon