Gitarizm

Гитаризм

Конкурс на лучший кавер
Здесь могла бы быть Ваша реклама!
Хотите узнать как играть на гитаре? Гитаризм — лучший самоучитель гитары для начинающих!

Ленинград - Давай-давай


[интро]

Cm
Ты пришла на дискотеку в первый раз,
Fm
Мини-юбка и штиблеты, попа - высший класс,
Fm
Я тебя до этого не видел никогда,
G
И на танец пригласил, а ты сказала: "Да!".

G
Давай-давай, веселей,
G
Давай танцуй, каблуков не жалей,
Давай-давай, веселей,
Давай танцуй, каблуков не жалей.

Модные мелодии, яркие огни,
В ритме сердца твоего звучат они,
Новую пластинку ставит диск жокей,
Он приглашает нас с тобой на танец,
хей, хей, хей.

Давай танцуй, веселей,
Давай танцуй, каблуков не жалей,
Давай танцуй, веселей,
Давай танцуй, каблуков не жалей.

[Филл 1]

[Филл 2]

Давай-давай, веселей,
А ну танцуй, каблуков не жалей,
Давай-давай, веселей,
А ну танцуй, каблуков не жалей.


Интро:

G
e|------------|
B|------------|
G|------------|
D|------------|
A|-3-----1----|
E|----3-----3-|

Cm
e|---------------------------------|
B|---------------------------------|
G|---------------------------------|
D|---5-5-5-6-5-6-5---5-5-5-6-5-6-5-|
A|-3---------------3---------------|
E|---------------------------------|

G
e|---------------------------------|
B|---------------------------------|
G|---------------------------------|
D|---3-3-3-5-3-5-3---6-6-6-5-3-----|
A|-1---------------3-----------6-5-|
E|---------------------------------|

Филл 1:

Fm
e|------------|
B|------------|
G|------------|
D|----------5-|
A|-1-3-5-6----|
E|------------|

Филл 2:

G
e|-----------------------------------------|
B|-----------------------------------------|
G|-----------------------------------------|
D|----------5-4--3-3-2-1-0--5-4--3-3-2-1-0-|
A|-1-3-5-6---------------------------------|
E|-----------------------------------------|

G
e|---------------------------------------|
B|---------------------------------------|
G|-------------------------------3-3-5-5-|
D|-3-3---6-6-3-3---6-6-3-3--6-3----------|
A|---------------------------------------|
E|---------------------------------------|
No-No NoNoNoNo NoNoNoNo NoNo There's
no limit :)

- 2 раза
Автор: muzzon