Gitarizm

Гитаризм

Конкурс на лучший кавер
Здесь могла бы быть Ваша реклама!
Хотите узнать как играть на гитаре? Гитаризм — лучший самоучитель гитары для начинающих!

Кирпичи - Так надо


riff1:


												G#m     E Hb5  D5     Db5     H5   Hb5 
        
G|---------------8-7-7-7-6-6-6-6-6-4-4-3-3-3-3----	
D|-6-6-6-6-6-2-2-8-7-7-7-6-6-6-6-6-4-4-3-3-3-3----
A|-6-6-6-6-6-2-2-6-5-5-5-4-4-4-4-4-2-2-1-1-1-1----
E|-4-4-4-4-4-0-0----------------------------------

riff2:
 
D---------------2-2-1-1-1-1-1------
A-----2-2-2-2-2--------------------
E-4-4------------------------------

riff3:

  G#m   H5     E   Hb5   
G-----4-4-4-4-----8-8-8--------------
D-6-6-4-4-4-4-2-2-8-8-8--------------
A-6-6-2-2-2-2-2-2-6-6-6--------------
E-4-4---------0-0--------------------


Начало песни:

riff1-4 раза
riff2-2 раза
riff3-4 раза 



под riff2: 

C глаз твоих течет слеза
Зеленой слизью по щекам
Полюбишь ты меня тогда
Когда мы будем плакать

затем riff3  4 раза

Опять под riff2 2-ой куплет:

С глаз твоих течет слеза
Собаки лают,страх
А может просто я попал
А ты все таже в снах

под riff1:

Не надо   
Автор: muzzon