Gitarizm

Гитаризм

Конкурс на лучший кавер
Здесь могла бы быть Ваша реклама!
Хотите узнать как играть на гитаре? Гитаризм — лучший самоучитель гитары для начинающих!

Кино - Застоялся мой поезд


		... ЗАСТОЯЛСЯ МОЙ ПОЕЗД...

 		Перед вступлением:

		D|--------------------3--2-----3-2-3--------|
		A|--0-----0-----3-----------5------------3--|
		E|-----0-----3-----3------------------3-----|

 		Вступление+Соло в куплете:

		|--------------------------------|-----------------0--------------|
		|-----------------1-----0--------|-----1-----1-----------3-----1--|
		|----2-----2------------------2--|--0-----0-----0-----0-----0-----|
		|-2-----2-----2-----2-----2------|--------------------------------|
		|--------------------------------|--------------------------------|
		|--------------------------------|--------------------------------|

		|-----------------5-----3------------8------8~~~~~------------|
		|-----6-----6---------------------8------8~~~~~~~~-----------|
		|--5-----5-----5-----5-----5------------------------------------|
		|-----------------------------------------------------------------|
		|-----------------------------------------------------------------|
		|-----------------------------------------------------------------|
Автор: muzzon