Gitarizm

Гитаризм

Конкурс на лучший кавер
Здесь могла бы быть Ваша реклама!
Хотите узнать как играть на гитаре? Гитаризм — лучший самоучитель гитары для начинающих!

Эпидемия - Эпилог


Gtr I - Acoustic G
 Eb|-----4--6-7-6-4-|-2---2-----6-|-4---4---------|-----------|
 Bb|---4------------|---2---2-7---|---0---0-5-4-2-|-----------|
 Gb|----------------|-------------|---------------|-3--4-3----| 
 Db|----------------|-------------|---------------|-----------|
 Ab|----------------|---------6---|---------4-----|-----------|
 Eb|-4--------0-----|-2-----------|-0-------------|-2---------|

 Eb|-----4-6-7---6-4-|-2---2------6--|-4---4-----------|------|
 Hb|---4-------------|---2---2-7-----|---0---0-5---4-2-|------|
 Bb|-4---------------|---------------|-----------------|-3----|
 Db|-----------------|---------------|-----------------|------|
 Ab|-----------------|---------6-----|---------4-------|------|
 Eb|-4-------0-------|-2-------------|-0---------------|-2----|

 Gtr. II - Dist. 

 Eb|-----------------|-----------------|-----------------|--------------------|
 Hb|-----------------|-----------------|-----------------|--------------------|
 Bb|-----------------|-----------------|-----------------|--------------------|
 Db|-----------------|-----------------|-----------------|-8-----8-----8------|
 Ab|-6-----6-----6---|-2-----2-----2---|-4-----4-----4---|-6-6-6-6-6-6-6-6----|
 Eb|-4-4-4-4-4-4-4-4-|-0-0-0-0-0-0-0-0-|-2-2-2-2-2-2-2-2-|--------------------|
     p.m.  p.m.  p.m.  p.m.  p.m.  p.m.  p.m.  p.m.  p.m.  p.m.  p.m.  p.m. 

 Eb|-----------------|-----------------|--------------------|
 Hb|-----------------|-----------------|--------------------|
 Bb|-----------------|-----------------|--------------------|
 Db|-----------------|-6-----6-----6---|--------------------|
 Ab|-2-----2-----2---|-4-4-4-4-4-4-4-4-|-4-----4-----4------|
 Eb|-0-0-0-0-0-0-0-0-|-----------------|-2-2-2-2-2-2-2-2----|
     p.m.  p.m.  p.m.  p.m.  p.m.  p.m.  p.m.  p.m.  p.m.  
Автор: muzzon