Gitarizm

Гитаризм

Конкурс на лучший кавер
Здесь могла бы быть Ваша реклама!
Хотите узнать как играть на гитаре? Гитаризм — лучший самоучитель гитары для начинающих!

Дискотека Авария - Девочка (1)


Intro

   Am             Em
E-7-7-7-3-5--3-5-7---
B-----------------8-5
   Am             Em
E-7-7-7-3-5--3-5-7-10-7
B----------------------
   D             C               H7
E---------------------------------
B-5-5-7-8-7--7-7-8-10-5--5-5-7-8-4


Am          Em
Тихо гаснет свет свечи,
Am          Em
Мы в объятиях ночи.
D            C
В этот вечер ты со мной,  
     H7            Em   
Этот вечер будет мой.

Ты ко мне доверчива,
Хоть и чуть застенчива.
Ты поймешь конечно все,
Хоть ты и девочка еще.

Посвящается влюбленным 
Песня про тебя и меня 

Как прекрасны твои волосы,
Что-то шепчет нежный голос.
В этот вечер ты со мной,
Этот вечер будет мой.

Я движением руки
Прикоснусь к твоей груди.
Ты поймешь конечно все,
Хоть ты и девочка еще.

Ты лежишь, ты так слаба,
Ни к чему теперь слова.
Вот закрыта в детство дверь,
И ты не девочка теперь.

Outro

E------------------------------7-7-5-----------
B-5-7-8-7--7-7-8-10-5--5-7-8-4------4--5---3-5
G----------------------------------------4----
Автор: muzzon