Gitarizm

Гитаризм

Конкурс на лучший кавер
Здесь могла бы быть Ваша реклама!
Хотите узнать как играть на гитаре? Гитаризм — лучший самоучитель гитары для начинающих!

Чиж и Ко - Перекресток


Проигрыш:
 
v - vibrato
/ - палец быстро скользит на другой лад

E|--------------5-7v---7-5v--------------------------5-7v------|
H|--0-5-7-8-7-8---------------8-5v-------0-5-7-8-7-8-----------|
G|-------------------------------------------------------------|
D|-------------------------------------------------------------|
A|-------------------------------------------------------------|
E|-------------------------------------------------------------|

E|-7/10-10-10v-9-8-7v-8-7--------------0-7-5-----7-6-5v---8-5v-|
H|------------------------8-5v-8-7-6v-5------7-8---------------|
G|-------------------------------------------------------------|
D|-------------------------------------------------------------|
A|-------------------------------------------------------------|
E|-------------------------------------------------------------|

 Dm(V)
Ты ушла рано утром, чуть позже шести
                    A(V)
Ты ушла рано утром, где-то чуть позже шести
 Gm(III)
бесшумно оделась, посмотрев на часы
    Dm(V)
на пачке LM'а   нацарапав "прости".

На подушке осталась пара длинных волос
На подушке осталась пара твоих светлых волос
И почти машинально (что ты скажешь, басист?)
Я намотал их на палец (я хотел узнать имя) - получилось "икс".

Кому жизнь - буги-вуги, а кому - полный бред
Кому жизнь - буги-вуги, ну а мне - полный бред
Недопитое пиво, недобитый комар,
Недосмотренный сон, незаметный удар.

Я искал тебя здесь и там, я думал - свихнусь
Я не нашел тебя ни здесь, и не там, и подумал - свихнусь
О гитара, и струны, священный союз,
Когда кидает любовь, начинается блюз.

Соло

Ты ушла рано утром, когда я еще спал
Ты ушла рано утром, когда я еще спал
Вечный мой перекресток, где минус, где плюс?
Когда уходит любовь, остается блюз (2 р)

Соло

E|-10--7------------7------------------------------------------|
H|-------10--8--10---------------------------------------------|
G|-------------------------------------------------------------|
D|-------------------------------------------------------------|
A|-------------------------------------------------------------|
E|-------------------------------------------------------------|




  Вступительный проигрыш:
Am
+--0---0---0-+----0----0---0-+----------------+0---------0-----+
+--1---1---1-+----1----1---1-+------0-1-0-1-3-+----1-------3-1-+
+--2---2---2-+----2----2---2-+----2-----------+----2-----------+
+--------2---+-----------2---+--2-------------+----------------+
+0---3-------+0-----3--------+0---------------+0-----3---------+
+------------+---------------+----------------+----------------+
^ ^ ^ ^ ^ ^ ^ ^ - восемь долей такта
Am
+------0---0-+--0---0---0-+----------------+0---------3-3-3----+
+3-----3---3-+--1---1---1-+------0-1-0-1-3-+----1--------------+
+--1---1---1-+--2---2---2-+----2-----------+----2--------------+
+--2-----2---+--------2---+--2-------------+-------------------+
+----2-------+0---3-------+0---------------+0-----3------------+
+0-----------+------------+----------------+-------------------+
Am
+--3--3-2-1-0-+--0---0---0-+----0-----0-3-0-+------------------+
+--1--1-------+--3---3---3-+----3-----3-----+1------------1----+
+--2--2-------+--1---1---1-+----1-----1-----+--2--------2------+
+-------------+--------2---+----------------+---------2--------+
+3------------+----2-------+-------2--------+0----3------------+
+-------------+0-----------+0---------------+------------------+
Am
+----------3-+1--------1---1-+----1-----3-1---+0---------0-----+
+2-------2---+----3----3---3-+----3---------3-+----1-------3-1-+
+--0---0-----+----2------2---+----------------+----2-----------+
+----2-------+0-----3--------+0-----3---------+----------------+
+0-----------+---------------+----------------+0-----3---------+
+------------+---------------+----------------+----------------+
                     ^ - это бас! играть рекомендую большим
Am                                пальцем
+----------0---0-+----------------+5-
+3---------3---3-+----1-----1-----+5-
+----1-----1---1-+----2-----2-----+5-
+----2-------2---+------------2---+-- и т.д. по содержанию
+------2---------+0-----3---------+0-
+0---------------+----------------+--

Автор: muzzon