Gitarizm

» Тексты и аккорды к песням для гитары » Аккорды для песни Агата Кристи – Аусвайс на небо

Гитаризм

Конкурс на лучший кавер
Здесь могла бы быть Ваша реклама!
Хотите узнать как играть на гитаре? Гитаризм — лучший самоучитель гитары для начинающих!

Аккорды для песни Агата Кристи – Аусвайс на небо


Am E7 Am
Явился мне в печальном сне крылатый Серафим,
Am E7 Am
И я во сне сказал ему: Летим, летим, летим.
Am E7 Am
Я знаю, есть и ждет меня желанный мой причал.
Am E7 Am
Даруй мне путь: скажи пароль, я так о нем мечтал.

Припев:
E7 Am
Аусвайс, аусвайс, аусвайс на небо,
Dm Am
Аусвайс на небо.

Далее свист:
E7 Am
E |-----------------|-----------------|----------|
B |--3--------------|--0--------------|----------|
G |-------1----1----|-------1----2----|----------|
D |-----------------|-----------------|----------|
A |-----------------|-----------------|----------|
E |-----------------|-----------------|----------|

Ответил он: Идет, грядет последняя война.
Идет войной на тех, кто чист проклятый сатана.
Летим со мной, летим со мной, с тобой мы победим.
Умрешь за Бога, наш герой, и мы тебе вручим:

Аусвайс, аусвайс, аусвайс на небо,
Аусвайс на небо.

Припев:

Летим со мной, летим со мной, порвем их на куски.
Раздавим сапогами их мятежные мозги!
Давай, картечью демонов размажем по стене.
Давай, мечами выпустим весь ливер сатане!

Аусвайс, аусвайс, аусвайс на небо,
Аусвайс на небо.

Припев:

Проигрыш:
Am Am E7
E |---------------|---------------|-------------|---------------|
B |---------------|---------------|-------------|---------------|
G |-------9----9--|------------9--|--9----------|--9---10--12---|
D |--7------------|--7----7-------|-------7--7--|---------------|
A |---------------|---------------|-------------|---------------|
E |---------------|---------------|-------------|---------------|

Am Am Am
E |-------------------|-----------|---------------|-------------|
B |-------------------|-----------|---------------|-------------|
G |-10---9----9-10-9--|--9--------|-------9----9--|----------9--|
D |-------------------|-----------|--7------------|--7----7-----|
A |-------------------|-----------|---------------|-------------|
E |-------------------|-----------|---------------|-------------|

E7 Am Am
E |-------------|---------------|------------|------------------|
B |-------------|---------------|------------|------------------|
G |-9-----------|--9----9----7--|--7----5----|-------9----9-----|
D |-----7----7--|---------------|------------|--7---------------|
A |-------------|---------------|------------|------------------|
E |-------------|---------------|------------|------------------|

Am E7 Am
E |-------------|-------------|---------------|-----------------|
B |-------------|-------------|---------------|-----------------|
G |----------9--|--9----------|--9----10--12--|--10--9--9-10-9--|
D |-7---7-------|-------7--7--|---------------|-----------------|
A |-------------|-------------|---------------|-----------------|
E |-------------|-------------|---------------|-----------------|

Am Am
E |---------|-----------------|-----------------|---------------|
B |---------|-----------------|-----------------|---------------|
G |-9-------|-------9----9----|------------9----|--9------------|
D |---------|--7--------------|--7----7---------|-------7----7--|
A |---------|-----------------|-----------------|---------------|
E |---------|-----------------|-----------------|---------------|

E7 Am
E |-----------------|----------------||
B |-----------------|----------------||
G |--9----9----7----|--7----5--------||
D |-----------------|----------------||
A |-----------------|----------------||
E |-----------------|----------------||

Припев:
Автор: muzzon