Gitarizm

» Тексты и аккорды к песням для гитары » Аккорды для песни Belka. "Холод"

Гитаризм

Конкурс на лучший кавер
Здесь могла бы быть Ваша реклама!
Хотите узнать как играть на гитаре? Гитаризм — лучший самоучитель гитары для начинающих!

Аккорды для песни Belka. "Холод"


проигрыш:G Gsus4 C Am E Am

Verse 1,Riff 1:
(Cпокойно и мелодично)
G G
E--2------------------2----------2--------|
H--0------------0-----0------0-----0------|
G--0----------0---0---0----0---0-----0----|
D--0-------0----------0--0-------------0--|
A--1------------1-----1------1---1--------|
E--2------------------2-------------------|
В городе,наступает ночь...

Gsus4
E--2-------------2----------2-------------|
H--0--------0----0------0-----0-----------|
G--0-------0--0--0----0---0-----0---------|
D--1-----1-------1--1-------------0-------|
A--2--------2----2------2---2-------------|
E--0-------------0------------------------|
Я иду отсюда прочь...

(Бой)
C Am E
Я ищу тепло для города,для бескрайнего холода
Am
И для тебя...

Verse 2,Riff 1:

Прячась за высокой горой...
Прячась за зеленой листвой
Я вижу пару молодую
Идущую по берегу холодному

Сначала они были добры друг к другу
Потом стало холодно,очень холодно
(Бой)
C Am E
И она,швырнув в него песком,убежала к себе
Am
В холодный дом

А он не смотрел ей вслед-
Он решил что ей мало лет:
(Бой)
"Не ходи за мной по берегу крутому,
Не беги за мной по берегу холодному"

далее проигрыш(первый)

Verse 1,Riff 1:

Я ищу страны,где есть тепло
Я ищу страны,где есть любовь
(Бой)
C Am E
А когда найду,заберу тебя
Am
Отсюда прочь

В городе,наступила ночь
Убежала я отсюда прочь
(Бой)
C Am
Я нашла тепло для города,
E
Для бескрайнего холода
Am E
И для тебя...И для тебя-а!

и в конце,проигрыш 1 раз
Автор: muzzon