Gitarizm

» Тексты и аккорды к песням для гитары » Аккорды для песни Alex13. "Мечтаю о тебе..."

Гитаризм

Конкурс на лучший кавер
Здесь могла бы быть Ваша реклама!
Хотите узнать как играть на гитаре? Гитаризм — лучший самоучитель гитары для начинающих!

Аккорды для песни Alex13. "Мечтаю о тебе..."


a--------------7--------5--------7----------5-----
d-------------------------------------------------

словно сорвавшиеся с неба звезда
a-------3---------2-----------------0---------2-------
d-------3---------2-------------------------------------

летящая в низ и сгорая в пути
a--------7--------5-------7------5--------------------
d-------------------------------------------------------

мечту воплощая не реальной любви
a--------3---------2---------0-------------2-----------
d--------3---------2------------------------------------

Мечтаю о тебе на яву и во сне
Быть может, когда-то ты придешь и ко мне

Ты так прекрасна, я любуюсь тобой
Каждый свой день отдаю его той
Той, что не видит меня пред собой
Я отдам жизнь в придачу с душой

Вот мое сердце в руке у тебя
Выкинь подальше его не любя
Пусть его топчат ногами порой
Боль не что по сравненью с мечтой

Мечтаю о тебе на яву и во сне
Быть может, когда-то ты придешь и ко мне.

( с каждой нотой или аккордом идет перебор 5-32123)
Автор: muzzon