Gitarizm

» Тексты и аккорды к песням для гитары » Аккорды для песни Гiмн України

Гитаризм

Конкурс на лучший кавер
Здесь могла бы быть Ваша реклама!
Хотите узнать как играть на гитаре? Гитаризм — лучший самоучитель гитары для начинающих!

Аккорды для песни Гiмн України


|-----------3------------------3--1------0---------------0--1--3--|
|----------------------------------------------2--1--2------------|

|-0---0--0-----0--1--3---1--0------------0-----------|
|-----------3------------------3--1------------------|
|------------------------------------2------1--2---2-|

|--------0-------------------------------------------0---0-|
|-0---0-----3--1--0-----0--1------0--0--1--1---3--3--------|
|--------------------2---------2---------------------------|

|--------0---------------------------------0------0---------------0--1-|
|-0---0-----3--1--0-----0--1------0--0--1------0--------0--1---3-------|
|--------------------2---------2---------------------2-----------------|

|-3---2--3--0---------3--1--0------------------0------------0--1-|
|--------------3--3------------3--1--1---3--3------3--1--3-------|
|----------------------------------------------------------------|

|-3---2--3--0---------3--1--0------------0------------|
|--------------3--3------------3--1-------------------|
|------------------------------------2------1--2---2--|
Последних 2 рифа-2раза

Ще не вмерла Україна
Ще не вмерла України i слава, i воля,
Ще нам, браття молодiї, усмiхнеться доля.
Згинуть нашi вороженьки, як роса на сонцi,
Запануєм i ми, браття, у своїй сторонцi.

Душу й тiло ми положим за нашу свободу.

i покажем, що ми, браття, козацького роду.
Станем, браття в бiй кровавий вiд Сяну до Дону,
В рiднiм краю панувати не дамо нiкому;
Чорне море ще всмiхнеться, дiд Днiпро зрадiє,
Ще у нашiй Українi доленька наспiє.

Душу, тiло ми положим...
А завзяття, праця щира свого ще докаже,
Ще ся волi в Українi, пiснь гучна розляже,
За карпати вiдобґється, згомонить степами,
України слава стане помiж народами.

Душу, тiло ми положим...

М.Вербицький
П.Чубинський, С.Данилович
Автор: muzzon