Gitarizm

» Тексты и аккорды к песням для гитары » Аккорды для песни Tico-Tico

Гитаризм

Конкурс на лучший кавер
Здесь могла бы быть Ваша реклама!
Хотите узнать как играть на гитаре? Гитаризм — лучший самоучитель гитары для начинающих!

Аккорды для песни Tico-Tico


2/-----------------10---------------------9
3/-9-8-9-10-9---------9-8-9-10-9-

Am
1/-----------------10-7-
2/-----------------------------9-5-
3/-9-8-9-10-9---------------------------7-6-5-

Dm7 Am H7
1/----------------------------10-8---------------------------8-8-7--
2/-10-9-8------------10-------------10-------------10-----------------10-9
3/--------------10---------------------------10-9
E7
1/----------------8-7---------------------7
2/-----7-10--------------10-9-10-
3/--8
4/-9
Am E7
2/----------------10--------------------9
3/-9-8-9-10-9-------9-8-9-10-9
Am
1/-------------------10-7
2/--------------------------9-5-----
3/-----9-8-9-10-9--------------7-6-5
Dm7 Am H7
1/-----------------------10-8-------------- - 8-8-7---------
2/-10-9-8---------10----------10----- -10------------------10-9
3/-------------10------------------10-9—
E7 Am
1/-------------7-12—10-8-7---------
2/---9----------------------------------10
3/-9
C Dm7
2/-12-10-9—8------------8--------------8-9-10----
3/----------------------9--------------9-----------------10-10-
4/-----------------10-----------10
G7 C
1/-7
2/----10-9-8----------8------------8-10
3/---------------7----------7-10------------9-9
4/--------------9---------9---------------------------
Dm Hdim C
1/-----------------------------------------10-12
2/-13-12-11-10-9-10-12-13-12-13-
C#dim Dm G7 C
1/---------12-15-14-13-12-10
2/-----13---------------------------13-12-10
3/-12-----------------------------------------------12-10-9---
4/-----------------------------------------------------------------12-10

Эту мелодию желательно играть в бы стром темпе,и по возможности в 2-е гитары.
Автор: muzzon