Gitarizm

» Тексты и аккорды к песням для гитары » Аккорды для песни Doom. "Map 10 - Refuelling Base"

Гитаризм

Конкурс на лучший кавер
Здесь могла бы быть Ваша реклама!
Хотите узнать как играть на гитаре? Гитаризм — лучший самоучитель гитары для начинающих!

Аккорды для песни Doom. "Map 10 - Refuelling Base"


Там еще басс, и слой какой-то, но они уж очень простенькие

E||------------------------|--------------------------|------------------------|
B||------------------------|--------------------------|------------------------|
G||--------------0---------|--------------------------|--------------0---------|
D||-----4--3----------4----|-----4--3-----2--0--------|-----4--3----------4----|
A||--2--------2------------|--2--------2--------4--0--|--2--------2------------|
E||------------------------|--------------------------|------------------------|

--------------------------|------------------------|--------------------------|
--------------------------|------------------------|--------------------------|
--------------------------|--------------0---------|--------------------------|
-----4--3-----2--0--------|-----4--3----------4----|-----4--3-----2--0--------|
--2--------2--------4--0--|--2--------2------------|--2--------2--------4--0--|
--------------------------|------------------------|--------------------------|

------------------------|--------------------------|------------------------|
------------------------|--------------------------|------------------------|
--------------0---------|--------------------------|------------------------|
-----4--3----------4----|-----4--3-----2--0--------|-----0--------1----0----|
--2--------2------------|--2--------2--------4--0--|--------4---------------|
------------------------|--------------------------|--3--------3------------|

--------------------------|------------------------|--------------------------|
--------------------------|------------------------|--------------------------|
--------------------------|------------------------|--------------------------|
-----0--------------------|-----0--------1----0----|-----0--------------------|
--------4-----3--1--0-----|--------4---------------|--------4-----3--1--0-----|
--3--------3-----------1--|--3--------3------------|--3--------3-----------1--|
Автор: muzzon