Gitarizm

» Тексты и аккорды к песням для гитары » Аккорды для песни Караван

Гитаризм

Конкурс на лучший кавер
Здесь могла бы быть Ваша реклама!
Хотите узнать как играть на гитаре? Гитаризм — лучший самоучитель гитары для начинающих!

Аккорды для песни Караван


1--------------------------0--0--0--0--0--0------------
2--------------------------1--1--1--1--1--1------------
3-----------2--2--0-0------2--2--2--2--2--2------------
4-----2--2-----------------2--2--2--2--2--2------------
5----------------------0---0--0--0--2--0--0-----------
6--------------------------0--0--0--0--0--0------------
^ v v ^ v ^
Вот идёт караван,

Am Dm
1---------------------------1--1--1--1--1--1------------
2---------------------------3--3--3--3--3--3------------
3------------2--2--0-0------2--2--2--2--2--2------------
4-----2--2--------------0---0--0--0--0--0--0------------
5--------------------------------------------------------
6-------------------------------------------------------
^ v v ^ v ^
по зыбучим пескам,

Dm E
1--------------------------0---0--0--0--0--0--0------------
2-------------2--2--0--0-------0--0--0--0--0--0------------
3-----2--2---------------------1--1--1--1--1--1------------
4------------------------------2--2--2--2--2--2------------
5------------------------------2--2--2--2--2--2------------
6------------------------------0--0--0--0--0--0------------
^ v v ^ v ^
И везёт в Курбаши
E Am
1----------------------------0--0--0--0--0--0------------
2----------------------------1--1--1--1--1--1------------
3----------------------------2--2--2--2--2--2------------
4---2--2---------------------2--2--2--2--2--2------------
5---------3--3---2--2--0-----0--0--0--0--0--0------------
6----------------------------0--0--0--0--0--0------------
^ v v ^ v ^
40 тонн анаши,

Текст:

Вот идёт караван, по зыбучим пескам,
И везёт в Курбаши 40 тонн анаши,

2-6 куплеты можноиграть простым боем
Am Dm
10 дней без воды, всё идут верблюды,
E Am
О Алах помаги, до воды доведи,

Караванщик басяк, забивает косяк,
Затянулся разок, и уткнулся в песок,

Ой помрёшь ты помрёшь, тебя примет земля,
На могиле твоей, зацветёт конопля,

Твои дети придут, на косяк собирут,
Н косяк собирут, и тихонько курнут,

Ой помрёшь ты помрёшь, тебя примет земля,
На могиле твоей, зацветёт конопля.
Автор: muzzon