Gitarizm

» Тексты и аккорды к песням для гитары » Аккорды для песни Милая моя

Гитаризм

Конкурс на лучший кавер
Здесь могла бы быть Ваша реклама!
Хотите узнать как играть на гитаре? Гитаризм — лучший самоучитель гитары для начинающих!

Аккорды для песни Милая моя


Куплет:

e|------------------3-2-0-0----------------------------------------------|
B|0-0-0-0-0-0-0-0-0-0-----------------------------3-3-3-3-3-3-3-3-3|
G|------0-----------0-----------0-----------0-----------4-----2---------|
D|------2---------------------2---2-------2---2---------5-----4---------|
A|------2-------------------2-------2---2-------2-------5-----5---------|
E|0-----------3-----------0-----------3-----------3----------------------|

e|7-5-3-------------------------0-0-0-0-0-0-2-2-2-1-0-2-3----------|
B|------3-----------------------------1-----------0-----------0---------|
G|------------4-----4-----4-----------2-----------2---------0---0------|
D|----------5---5-----5-----5---------2-----------1-------2-------2----|
A|--------5-------5-----5-----5-0-----------2-----------2--------------|
E|------3-----------------------------------------------------------------|

e|4-----------------------------------0----------------------------------|
B|--3---------1-1-1-1-3-1-0-0-0-0-2-4---0---------------------------|
G|----4-1-----------2-----------2---------0-----0----------------------|
D|--------2-0-------2-----------1-------------2------------------------|
A|2-----------0-----0-----2-----2-----------2--------------------------|
E|------------------------------------0----------------------------------|

Припев:

e|7---3-0---3----------5---2-0---2-0------------3---3-2-0----------|
B|--0-----0---1----------3-----1-------3----------0-------1--------|
G|--0-----0-----2---2----5-----2-------0-----0----0-----------2----|
D|--------------2---2--0-------------0-----0----------------2------|
A|------2-----0--------------0-----------2------------2---0--------|
E|0---------------0----------------3------------0------------------|

e|-------------------2---------------------------------------------|
B|------0---0-2----4---0-------------------------------------------|
G|----2---2-----2--------0-----0-----------------------------------|
D|--2-----1-----1------------2-------------------------------------|
A|------2------------------2---------------------------------------|
E|0-----------2------0---------------------------------------------|
Автор: muzzon