Gitarizm

» Тексты и аккорды к песням для гитары » Аккорды для песни Клен ты мой опавший

Гитаризм

Конкурс на лучший кавер
Здесь могла бы быть Ваша реклама!
Хотите узнать как играть на гитаре? Гитаризм — лучший самоучитель гитары для начинающих!

Аккорды для песни Клен ты мой опавший


B-----0-----------1-----------5-------3---------3-----0-------0---|
G---0---0-------------2-----5---5---5---5-----------0---0---2---2-|
D---------2---------2---2---------0-------4-----------------------|
A-----------------0---------------------------------------2-------|
E-0-----------------------------------------------3---------------|

E-3---------3-2-0---------2---0-------------------2-------0-------|
B-----0-----------1---------1---1-----0-0-2---4-------0---0-------|
G---0---0-------------2-----2---2---2-------2---2---0---0-0-------|
D---------2---------2---2-----------1-------1---4---------2-------|
A-----------------0---------------2-------------------------------|
E-0-----------------------------------------------0---------------|
Клен ты мой опавший, клен заледенелый,
Что стоишь нагнувшись под метелью белой?

Или что увидел? Или что услышал?
Словно за деревню погулять ты вышел.

И, как пьяный сторож, выйдя на дорогу,
Утонул в сугробе, приморозил ногу.

Ах, и сам я нынче чтой-то стал нестойкий,
Не дойду до дома с дружеской попойки.

Там вон встретил вербу, там сосну приметил,
Распевал им песни под метель о лете.

Сам себе казался я таким же кленом,
Только не опавшим, а вовсю зеленым.

И, утратив скромность, одуревши в доску,
Как жену чужую, обнимал березку.
Автор: muzzon