Gitarizm

» Тексты и аккорды к песням для гитары » Аккорды для песни Каким ты был

Гитаризм

Конкурс на лучший кавер
Здесь могла бы быть Ваша реклама!
Хотите узнать как играть на гитаре? Гитаризм — лучший самоучитель гитары для начинающих!

Аккорды для песни Каким ты был


|---3---5---1--------------3---5-----|-------1---5-------5-----------3-|
|--------------2-----2-------------2-|---2-----------------------------|
|------------------------------0-----|---------------3---------------0-|
|--------------0---------------------|-------------------3-------------|
|------------------------------------|---------------------------------|

|-----5---3---1---1-----------------------3--|----3---5-----------3--------|
|-3--------------------5---3---1-------3-----|-3----------5---3-------5----|
|----------------------------------2------0--|---------------------------2-|
|--------------------------------------0-----|------------0----------------|
|--------------------------------------------|---------------------------0-|
|-------------0------------------------------|-----------------------------|

Em Am C G
Каким ты был, таким остался,
C E
Орел степной, казак лихой!..
E7 Dm G7 C
Зачем, зачем ты снова повстречался,
Dm E Am
Зачем нарушил мой покой?

Зачем опять в своих утратах
Меня хотел ты обвинить?
В одном, в одном я только виновата,
Что нету сил тебя забыть.

Свою судьбу с твоей судьбою
Пускай связать я не могла,
Но я жила, жила одним тобою,
Я всю войну тебя ждала.

Ждала, когда наступит сроки,
Когда вернёшься ты домой…
И горьки мне, горьки твои упреки,
Горячий мой, упрямый мой!

Твоя печаль, твоя обида,
Твоя тревога ни к чему:
Смотри, смотри, душа моя открыта,
Тебе открыта одному.

Но ты взглянуть не догадался,
Умчался вдаль, казак лихой…
Каким ты был, Таким ты и остался,
Но ты и дорог мне такой.
Автор: muzzon