Gitarizm

» Тексты и аккорды к песням для гитары » Аккорды для песни Дорогой дальнею

Гитаризм

Конкурс на лучший кавер
Здесь могла бы быть Ваша реклама!
Хотите узнать как играть на гитаре? Гитаризм — лучший самоучитель гитары для начинающих!

Аккорды для песни Дорогой дальнею


E||------------------------|------------------------|------------------------|
B||--1--1--0--0------------|------------------------|------------------------|
G||----------------2--2----|--2--2--0--0------------|-----------0------0--4--|
D||------------------------|----------------3--3----|--0--2--3---------------|
A||------------------------|------------------------|------------------------|
E||------------------------|------------------------|------------------------|

------------------------|------------------------|------------------------|
------------------------|------------------------|-----3----1--1-------0--|
--2--0------------------|-----0---------------0--|--2---------------2-----|
--------3--2---------0--|--2-------3--3----3-----|------------------------|
------------------3-----|------------------------|------------------------|
------------------------|------------------------|------------------------|

-----0-------------------|-------------------||
--1-------3--1--0--------|-------------------||
-------------------2--1--|--2----------------||
-------------------------|-------------------||
-------------------------|-------------------||
-------------------------|-------------------||
Автор: muzzon